View Single Post
  #3  
Old 03-02-2021, 03:43 PM
printer2 printer2 is offline
Registered User
 
Join Date: Dec 2012
Posts: 4,480
Default

LADYKILLERS - Lush
--------------------------------------------------------------------------
Tabbed by: illy93
Tuning: Standard
~CHORDS USED~

Em: 022000
F#m: 244222
G: 355433
A: x0222x
B: x2444x
Bm: x2443x
C: x3555x
D: x5777x
D#: x6888x
--------------------------------------------------------------------------
~INTRO~

Guitar 1: Em, Bm, Em, C, B x2....then A, G, F#m, F#m.

Guitar 2:

Em Bm Em C B

e|------------------------------------------------|
B|------------------------------------------------|
G|------------------------------------------------|
D|------------------------------------------------|
A|---------------------------------------3-0-3-2--|
E|--0-3-5-7-5-3-0-0-3-7-5-7--0-3-5-7-5-3----------|

x2
then...
A G F#m

e|-----------------------------------|
B|-----------------------------------|
G|-----------------------------------|
D|-----------------------------------|
A|--222------------------------------|
E|------555-0-5-333-0-222222-222222--|

~VERSE 1~

Both Guitars: Em, G, Bm, A, Em
------------------------------------------------------------------------
~PRE CHORUS~

Both Guitars: D, A, Em, D, D#, D, D, Em, C, B

~VERSE 2~

Guitar 1: Em, G, Bm, A, Em

Guitar 2:

Em G Bm A Em

e|-------------------------------------|
B|-------------------------------------|
G|-------------------------------------|
D|-------------------------------------|
A|--7-5-----77-5-----77-5--------------|
E|------7-5------7-5------7-5-0-232-0--|

x1

Then same chords as guitar 1
~PRE CHORUS~

Both Guitars: same as first pre chorus chords

~CHORUS~

Both Guitars: C, Em, C, Em, C, Em, C, B (x2)

~POST CHORUS~

Guitar 1: intro chords, with added B after second F#m

Guitar 2:

Em Bm Em C B

e|-------------------------------------|
B|-------------------------------------|
G|-------------------------------------|
D|-------------------------------------|
A|--7-5-----77-5-----77-5-----3-0-3-2--|
E|------7-5------7-5------7-5----------|

x2
Then:

A G F#m B

e|-------------------------------|
B|-------------------------------|
G|-------------------------------|
D|-------------------------------|
A|--222-----------------------2--|
E|------555-0-5-333-2222-2222----|

~VERSE 3~

Both Guitars: silent for half verse, then play verse chord progression twice

~PRE CHORUS~

Both Guitars: same as first pre chorus chords

~CHORUS~

Both Guitars: same as first chorus chords

~OUTRO~

Guitar 1: Em, G, Bm, C x3....then: Em, G, Bm.

Guitar 2:

Em G Bm C

e|-------------------------------------------|
B|-------------------------------------------|
G|-------------------------------------------|
D|-------------------------------------------|
A|-------------------------------------------|
E|--0-3-5-7-5-3-0-0-3-5-7-5-------0-3-7-5-7--|

x3
Then:

Em G Bm

e|-------------------------------------------|
B|-------------------------------------------|
G|-------------------------------------------|
D|-------------------------------------------|
A|-------------------------------------------|
E|--0-3-5-7-5-3-0-0-3-5-7-5------------------|




__________________
Fred
Reply With Quote